注册 登录  
 加关注
   显示下一条  |  关闭
温馨提示!由于新浪微博认证机制调整,您的新浪微博帐号绑定已过期,请重新绑定!立即重新绑定新浪微博》  |  关闭

飞啦不休

The Harder The Life,The Sweeter The Song

 
 
 

日志

 
 
关于我

【吉他谱】【弹唱谱】 最近更新请关注 我的公众号:飞啦不休丨全新网站已上线: flybuxiu.com

网易考拉推荐
GACHA精选

【吉他谱】<Curl Up and Die>--Relient K  

2012-12-07 00:05:05|  分类: |  标签: |举报 |字号 订阅

  下载LOFTER 我的照片书  |


【吉他谱】Curl Up and Die--Relient K - 不休 - 飞啦不休
 
【吉他谱】Curl Up and Die--Relient K - 不休 - 飞啦不休
 
 
Relient K乐队风格为流行朋克,福音摇滚。在零七年曾经听过他们一个专辑,他们的歌词我感觉比较抽象,赞美上帝啊,忏悔之类的,我不太感冒。

试听:



和弦整理自国外的吉他谱站:


以下是和弦按法,我觉得很麻烦,用低把位也行啊。。
*Chords Used
   Em7*   C    G    B7  Dsus2*  
e|--7-------------------------------|
B|--8-----8----8----7--------5--|
G|--7-----9----7----8--------7--|
D|--9----10----9----7-------7--|
A|--7----10---10---9-----------|
E|---------------------------------|

  Gsus2   Gsus2/F#   Em7  Cadd9/A  Cadd9  Dsus2  C*       
e|--3-------3-------------------------3---------3---------0--------4--|
B|--3-------3---------------3--------3---------3---------3--------5--|
G|--0-------0---------------0--------0---------0---------2-----------|
D|--0-------0---------------2--------2---------2---------0-----------|
A|--x-------x---------------2--------0---------3----------------------|
E|--3-------2---------------0------------------------------------------|

弹唱谱:第二段的副歌居然还点变化,无关紧要了。。
【吉他谱】Curl Up and Die--Relient K - 不休 - 飞啦不休


有意赞助不休的请戳→  友情赞助详情 ←

直接打赏可微信扫码

【吉他谱】《十万嬉皮》- 万能青年旅店(修正版) - 不休 - 飞啦不休 

 
 
  评论这张
 
阅读(1049)| 评论(6)
推荐 转载

历史上的今天

在LOFTER的更多文章

评论

<#--最新日志,群博日志--> <#--推荐日志--> <#--引用记录--> <#--博主推荐--> <#--随机阅读--> <#--首页推荐--> <#--历史上的今天--> <#--被推荐日志--> <#--上一篇,下一篇--> <#-- 热度 --> <#-- 网易新闻广告 --> <#--右边模块结构--> <#--评论模块结构--> <#--引用模块结构--> <#--博主发起的投票-->
 
 
 
 
 
 
 
 
 
 
 
 
 
 

页脚

网易公司版权所有 ©1997-2016